Yngwie Malmsteen - Farewell (var.10) Guitar tab download free or play online

Guitar tab for Farewell (var.10) by Yngwie Malmsteen free download and read or play online: file .txt, 2.01 kb has 55 views and 0 downloads.

Download guitar tab "Farewell (var.10)" (Yngwie Malmsteen)

Yngwie Malmsteen Band name
Farewell Song name
Guitar tabs Tab type
2.01 kb File size
.TXT File type
55 views
0 downloads
 
Are you robot?

Farewell (var.10) guitar tab read and play online

                    Farewell
Yngwie Malmsteen
Tab: AleFer

Afinar para F (F, Bb, Eb, Ab, C, f)
ou por um capotraste no 1° Fret

e|--------------------------------2--3---4------5--------------------|
B|--8-----7--5---4-----2--4--5-----------5------5--------------------|
G|---------------------------------------4------7----5h7p5\4---5-----|
D|---------------4-----------------------------------------------0---|
A|--7------------------0------------------------0--------------------|
E|---------------------------3-----------4---------------------------|
                    H.N.
e|--6--------------------------------------------------------------|
B|--7---------------------8----7----5----4h5p4h5p4h5p4h5p4h5p4h5---|
G|--8---------------------9----8----6----4-------------------------|
D|-----------------------------------------------------------------|
A|-----------------------------------------------------------------|
E|--6----6--7--9----7----------------------------------------------|

e|-----------------------0--------|
B|--5-----------------0-----------|
G|-----------------0--------------|
D|--------------4-----------------|
A|-----------2--------------------|
E|--------0-----------------0-----|
   H.N.------------------------------------------------------------------|
e|-12--------------12--------------12---------------7----------12-----------|
B|--------7-----7------7-----7----------7-----7---------7-----------7-------|
G|-----5-----7------------5-----7----------5-----7----------5-----------5---|
D|--------------------------------------------------------------------------|
A|--------------------------------------------------------------------------|
E|--------------------------------------------------------------------------|
   H.N.-----------------------------|
e|--12---------12--------------------|
B|------7----------12----------------|
G|---------5--------------12---------|
D|-----------------------------------|
A|-----------------------------------|
E|-------------------------------12--|                    

Comments for guitar tab — Farewell (var.10) (Yngwie Malmsteen)

Other Farewell (var.10) by Yngwie Malmsteen tabs:

Last viewed Yngwie Malmsteen tabs: